ISO-10303-21;
HEADER;
/* Generated by software containing ST-Developer
 * from STEP Tools, Inc. (www.steptools.com) 
 */

FILE_DESCRIPTION(
/* description */ (''),
/* implementation_level */ '2;1');

FILE_NAME(
/* name */ '',
/* time_stamp */ '2025-07-23T13:50:56+07:00',
/* author */ ('zeta-86'),
/* organization */ (''),
/* preprocessor_version */ 'ST-DEVELOPER v19.2',
/* originating_system */ 'Autodesk Inventor 2024',
/* authorisation */ '');

FILE_SCHEMA (('AUTOMOTIVE_DESIGN { 1 0 10303 214 3 1 1 }'));
ENDSEC;

DATA;
#10=MECHANICAL_DESIGN_GEOMETRIC_PRESENTATION_REPRESENTATION('',(#13),#468);
#11=SHAPE_REPRESENTATION_RELATIONSHIP('SRR','None',#475,#12);
#12=ADVANCED_BREP_SHAPE_REPRESENTATION('',(#14),#467);
#13=STYLED_ITEM('',(#484),#14);
#14=MANIFOLD_SOLID_BREP('\X2\04220432043504400434043E0435\X0\ \X2\04420435043B043E\X0\2',
#221);
#15=(
BOUNDED_CURVE()
B_SPLINE_CURVE(2,(#462,#463,#464),.UNSPECIFIED.,.F.,.F.)
B_SPLINE_CURVE_WITH_KNOTS((3,3),(1.14755912070111,1.21059292595982),
 .UNSPECIFIED.)
CURVE()
GEOMETRIC_REPRESENTATION_ITEM()
RATIONAL_B_SPLINE_CURVE((1.,0.997013666565296,0.995017661192146))
REPRESENTATION_ITEM('')
);
#16=(
BOUNDED_SURFACE()
B_SPLINE_SURFACE(2,2,((#435,#436,#437,#438,#439,#440,#441,#442,#443),(#444,
#445,#446,#447,#448,#449,#450,#451,#452),(#453,#454,#455,#456,#457,#458,
#459,#460,#461)),.UNSPECIFIED.,.F.,.T.,.F.)
B_SPLINE_SURFACE_WITH_KNOTS((3,3),(3,2,2,2,3),(1.14755912070111,1.52771589393323),
(-3.14159265358979,-1.5707963267949,0.,1.5707963267949,3.14159265358979),
 .UNSPECIFIED.)
GEOMETRIC_REPRESENTATION_ITEM()
RATIONAL_B_SPLINE_SURFACE(((1.,0.707106781186548,1.,0.707106781186548,1.,
0.707106781186548,1.,0.707106781186548,1.),(0.981989428090646,0.694371383656395,
0.981989428090646,0.694371383656395,0.981989428090646,0.694371383656395,
0.981989428090646,0.694371383656395,0.981989428090646),(1.,0.707106781186548,
1.,0.707106781186548,1.,0.707106781186548,1.,0.707106781186548,1.)))
REPRESENTATION_ITEM('')
SURFACE()
);
#17=CONICAL_SURFACE('',#261,4.4,0.785398163397444);
#18=CONICAL_SURFACE('',#265,5.575,0.785398163397449);
#19=CONICAL_SURFACE('',#271,5.575,0.785398163397447);
#20=B_SPLINE_CURVE_WITH_KNOTS('',3,(#369,#370,#371,#372,#373,#374,#375,
#376,#377,#378),.UNSPECIFIED.,.F.,.F.,(4,2,2,2,4),(-5.60687434986394,-5.37384475788523,
-5.03390553243196,-4.69396630697869,-4.46093671828795),.UNSPECIFIED.);
#21=B_SPLINE_CURVE_WITH_KNOTS('',3,(#383,#384,#385,#386,#387,#388,#389,
#390,#391,#392),.UNSPECIFIED.,.F.,.F.,(4,2,2,2,4),(4.46093671829013,4.69396630728625,
5.03390553243235,5.37384475757845,5.60687434986255),.UNSPECIFIED.);
#22=B_SPLINE_CURVE_WITH_KNOTS('',3,(#396,#397,#398,#399),.UNSPECIFIED.,
 .F.,.F.,(4,4),(2.99841452842751,3.07312202943595),.UNSPECIFIED.);
#23=B_SPLINE_CURVE_WITH_KNOTS('',3,(#400,#401,#402,#403),.UNSPECIFIED.,
 .F.,.F.,(4,4),(0.949421037322919,1.09879549451739),.UNSPECIFIED.);
#24=B_SPLINE_CURVE_WITH_KNOTS('',3,(#404,#405,#406,#407),.UNSPECIFIED.,
 .F.,.F.,(4,4),(3.07312202943595,3.14781620635288),.UNSPECIFIED.);
#25=LINE('',#362,#31);
#26=LINE('',#410,#32);
#27=LINE('',#419,#33);
#28=LINE('',#426,#34);
#29=LINE('',#428,#35);
#30=LINE('',#434,#36);
#31=VECTOR('',#297,5.15);
#32=VECTOR('',#314,4.4);
#33=VECTOR('',#325,5.575);
#34=VECTOR('',#334,6.);
#35=VECTOR('',#337,5.575);
#36=VECTOR('',#344,7.);
#37=CYLINDRICAL_SURFACE('',#253,5.15);
#38=CYLINDRICAL_SURFACE('',#260,44.5397266320452);
#39=CYLINDRICAL_SURFACE('',#268,6.);
#40=CYLINDRICAL_SURFACE('',#272,7.);
#41=TOROIDAL_SURFACE('',#249,5.9,0.75);
#42=FACE_BOUND('',#59,.T.);
#43=FACE_BOUND('',#68,.T.);
#44=FACE_OUTER_BOUND('',#58,.T.);
#45=FACE_OUTER_BOUND('',#60,.T.);
#46=FACE_OUTER_BOUND('',#61,.T.);
#47=FACE_OUTER_BOUND('',#62,.T.);
#48=FACE_OUTER_BOUND('',#63,.T.);
#49=FACE_OUTER_BOUND('',#64,.T.);
#50=FACE_OUTER_BOUND('',#65,.T.);
#51=FACE_OUTER_BOUND('',#66,.T.);
#52=FACE_OUTER_BOUND('',#67,.T.);
#53=FACE_OUTER_BOUND('',#69,.T.);
#54=FACE_OUTER_BOUND('',#70,.T.);
#55=FACE_OUTER_BOUND('',#71,.T.);
#56=FACE_OUTER_BOUND('',#72,.T.);
#57=FACE_OUTER_BOUND('',#73,.T.);
#58=EDGE_LOOP('',(#142));
#59=EDGE_LOOP('',(#143));
#60=EDGE_LOOP('',(#144));
#61=EDGE_LOOP('',(#145,#146,#147,#148,#149));
#62=EDGE_LOOP('',(#150,#151,#152,#153,#154,#155));
#63=EDGE_LOOP('',(#156,#157));
#64=EDGE_LOOP('',(#158,#159));
#65=EDGE_LOOP('',(#160,#161,#162,#163,#164));
#66=EDGE_LOOP('',(#165,#166,#167,#168));
#67=EDGE_LOOP('',(#169));
#68=EDGE_LOOP('',(#170));
#69=EDGE_LOOP('',(#171,#172,#173,#174,#175));
#70=EDGE_LOOP('',(#176,#177,#178,#179,#180,#181));
#71=EDGE_LOOP('',(#182,#183,#184,#185,#186,#187));
#72=EDGE_LOOP('',(#188,#189,#190,#191,#192));
#73=EDGE_LOOP('',(#193,#194,#195,#196,#197,#198,#199,#200,#201));
#74=CIRCLE('',#245,7.);
#75=CIRCLE('',#246,6.60710678118524);
#76=CIRCLE('',#248,4.25);
#77=CIRCLE('',#250,0.75);
#78=CIRCLE('',#251,5.15);
#79=CIRCLE('',#252,5.15);
#80=CIRCLE('',#254,5.15);
#81=CIRCLE('',#255,5.15);
#82=CIRCLE('',#257,44.5397266320452);
#83=CIRCLE('',#259,44.5397266320452);
#84=CIRCLE('',#262,4.55);
#85=CIRCLE('',#264,5.15);
#86=CIRCLE('',#266,6.);
#87=CIRCLE('',#267,6.);
#88=CIRCLE('',#269,6.);
#89=CIRCLE('',#270,6.);
#90=CIRCLE('',#273,7.);
#91=CIRCLE('',#274,7.);
#92=VERTEX_POINT('',#347);
#93=VERTEX_POINT('',#349);
#94=VERTEX_POINT('',#352);
#95=VERTEX_POINT('',#355);
#96=VERTEX_POINT('',#357);
#97=VERTEX_POINT('',#361);
#98=VERTEX_POINT('',#363);
#99=VERTEX_POINT('',#367);
#100=VERTEX_POINT('',#368);
#101=VERTEX_POINT('',#381);
#102=VERTEX_POINT('',#382);
#103=VERTEX_POINT('',#395);
#104=VERTEX_POINT('',#409);
#105=VERTEX_POINT('',#413);
#106=VERTEX_POINT('',#416);
#107=VERTEX_POINT('',#417);
#108=VERTEX_POINT('',#422);
#109=VERTEX_POINT('',#423);
#110=VERTEX_POINT('',#430);
#111=VERTEX_POINT('',#431);
#112=EDGE_CURVE('',#92,#92,#74,.T.);
#113=EDGE_CURVE('',#93,#93,#75,.T.);
#114=EDGE_CURVE('',#94,#94,#76,.T.);
#115=EDGE_CURVE('',#93,#95,#77,.T.);
#116=EDGE_CURVE('',#95,#96,#78,.T.);
#117=EDGE_CURVE('',#96,#95,#79,.T.);
#118=EDGE_CURVE('',#96,#97,#25,.T.);
#119=EDGE_CURVE('',#97,#98,#80,.T.);
#120=EDGE_CURVE('',#98,#97,#81,.T.);
#121=EDGE_CURVE('',#99,#100,#20,.T.);
#122=EDGE_CURVE('',#100,#99,#82,.T.);
#123=EDGE_CURVE('',#101,#102,#21,.T.);
#124=EDGE_CURVE('',#102,#101,#83,.T.);
#125=EDGE_CURVE('',#102,#103,#22,.T.);
#126=EDGE_CURVE('',#100,#101,#23,.T.);
#127=EDGE_CURVE('',#103,#99,#24,.T.);
#128=EDGE_CURVE('',#94,#104,#26,.T.);
#129=EDGE_CURVE('',#104,#104,#84,.T.);
#130=EDGE_CURVE('',#105,#105,#85,.T.);
#131=EDGE_CURVE('',#106,#107,#86,.T.);
#132=EDGE_CURVE('',#107,#105,#27,.T.);
#133=EDGE_CURVE('',#107,#106,#87,.T.);
#134=EDGE_CURVE('',#108,#109,#88,.T.);
#135=EDGE_CURVE('',#109,#108,#89,.T.);
#136=EDGE_CURVE('',#109,#106,#28,.T.);
#137=EDGE_CURVE('',#108,#98,#29,.T.);
#138=EDGE_CURVE('',#110,#111,#90,.T.);
#139=EDGE_CURVE('',#111,#110,#91,.T.);
#140=EDGE_CURVE('',#111,#92,#30,.T.);
#141=EDGE_CURVE('',#110,#103,#15,.T.);
#142=ORIENTED_EDGE('',*,*,#112,.F.);
#143=ORIENTED_EDGE('',*,*,#113,.T.);
#144=ORIENTED_EDGE('',*,*,#114,.F.);
#145=ORIENTED_EDGE('',*,*,#113,.F.);
#146=ORIENTED_EDGE('',*,*,#115,.T.);
#147=ORIENTED_EDGE('',*,*,#116,.T.);
#148=ORIENTED_EDGE('',*,*,#117,.T.);
#149=ORIENTED_EDGE('',*,*,#115,.F.);
#150=ORIENTED_EDGE('',*,*,#117,.F.);
#151=ORIENTED_EDGE('',*,*,#118,.T.);
#152=ORIENTED_EDGE('',*,*,#119,.T.);
#153=ORIENTED_EDGE('',*,*,#120,.T.);
#154=ORIENTED_EDGE('',*,*,#118,.F.);
#155=ORIENTED_EDGE('',*,*,#116,.F.);
#156=ORIENTED_EDGE('',*,*,#121,.F.);
#157=ORIENTED_EDGE('',*,*,#122,.F.);
#158=ORIENTED_EDGE('',*,*,#123,.F.);
#159=ORIENTED_EDGE('',*,*,#124,.F.);
#160=ORIENTED_EDGE('',*,*,#125,.F.);
#161=ORIENTED_EDGE('',*,*,#124,.T.);
#162=ORIENTED_EDGE('',*,*,#126,.F.);
#163=ORIENTED_EDGE('',*,*,#122,.T.);
#164=ORIENTED_EDGE('',*,*,#127,.F.);
#165=ORIENTED_EDGE('',*,*,#114,.T.);
#166=ORIENTED_EDGE('',*,*,#128,.T.);
#167=ORIENTED_EDGE('',*,*,#129,.T.);
#168=ORIENTED_EDGE('',*,*,#128,.F.);
#169=ORIENTED_EDGE('',*,*,#130,.F.);
#170=ORIENTED_EDGE('',*,*,#129,.F.);
#171=ORIENTED_EDGE('',*,*,#131,.T.);
#172=ORIENTED_EDGE('',*,*,#132,.T.);
#173=ORIENTED_EDGE('',*,*,#130,.T.);
#174=ORIENTED_EDGE('',*,*,#132,.F.);
#175=ORIENTED_EDGE('',*,*,#133,.T.);
#176=ORIENTED_EDGE('',*,*,#134,.F.);
#177=ORIENTED_EDGE('',*,*,#135,.F.);
#178=ORIENTED_EDGE('',*,*,#136,.T.);
#179=ORIENTED_EDGE('',*,*,#133,.F.);
#180=ORIENTED_EDGE('',*,*,#131,.F.);
#181=ORIENTED_EDGE('',*,*,#136,.F.);
#182=ORIENTED_EDGE('',*,*,#134,.T.);
#183=ORIENTED_EDGE('',*,*,#135,.T.);
#184=ORIENTED_EDGE('',*,*,#137,.T.);
#185=ORIENTED_EDGE('',*,*,#119,.F.);
#186=ORIENTED_EDGE('',*,*,#120,.F.);
#187=ORIENTED_EDGE('',*,*,#137,.F.);
#188=ORIENTED_EDGE('',*,*,#138,.F.);
#189=ORIENTED_EDGE('',*,*,#139,.F.);
#190=ORIENTED_EDGE('',*,*,#140,.T.);
#191=ORIENTED_EDGE('',*,*,#112,.T.);
#192=ORIENTED_EDGE('',*,*,#140,.F.);
#193=ORIENTED_EDGE('',*,*,#138,.T.);
#194=ORIENTED_EDGE('',*,*,#139,.T.);
#195=ORIENTED_EDGE('',*,*,#141,.T.);
#196=ORIENTED_EDGE('',*,*,#127,.T.);
#197=ORIENTED_EDGE('',*,*,#121,.T.);
#198=ORIENTED_EDGE('',*,*,#126,.T.);
#199=ORIENTED_EDGE('',*,*,#123,.T.);
#200=ORIENTED_EDGE('',*,*,#125,.T.);
#201=ORIENTED_EDGE('',*,*,#141,.F.);
#202=PLANE('',#244);
#203=PLANE('',#247);
#204=PLANE('',#256);
#205=PLANE('',#258);
#206=PLANE('',#263);
#207=ADVANCED_FACE('',(#44,#42),#202,.F.);
#208=ADVANCED_FACE('',(#45),#203,.F.);
#209=ADVANCED_FACE('',(#46),#41,.T.);
#210=ADVANCED_FACE('',(#47),#37,.T.);
#211=ADVANCED_FACE('',(#48),#204,.F.);
#212=ADVANCED_FACE('',(#49),#205,.T.);
#213=ADVANCED_FACE('',(#50),#38,.F.);
#214=ADVANCED_FACE('',(#51),#17,.F.);
#215=ADVANCED_FACE('',(#52,#43),#206,.T.);
#216=ADVANCED_FACE('',(#53),#18,.T.);
#217=ADVANCED_FACE('',(#54),#39,.T.);
#218=ADVANCED_FACE('',(#55),#19,.T.);
#219=ADVANCED_FACE('',(#56),#40,.T.);
#220=ADVANCED_FACE('',(#57),#16,.F.);
#221=CLOSED_SHELL('',(#207,#208,#209,#210,#211,#212,#213,#214,#215,#216,
#217,#218,#219,#220));
#222=DERIVED_UNIT_ELEMENT(#225,1.);
#223=DERIVED_UNIT_ELEMENT(#470,-3.);
#224=DIMENSIONAL_EXPONENTS(0.,1.,0.,0.,0.,0.,0.);
#225=(
CONVERSION_BASED_UNIT('gram',#227)
MASS_UNIT()
NAMED_UNIT(#224)
);
#226=(
MASS_UNIT()
NAMED_UNIT(*)
SI_UNIT(.KILO.,.GRAM.)
);
#227=MASS_MEASURE_WITH_UNIT(MASS_MEASURE(0.001),#226);
#228=DERIVED_UNIT((#222,#223));
#229=MEASURE_REPRESENTATION_ITEM('density measure',
POSITIVE_RATIO_MEASURE(1.),#228);
#230=PROPERTY_DEFINITION_REPRESENTATION(#235,#232);
#231=PROPERTY_DEFINITION_REPRESENTATION(#236,#233);
#232=REPRESENTATION('material name',(#234),#467);
#233=REPRESENTATION('density',(#229),#467);
#234=DESCRIPTIVE_REPRESENTATION_ITEM('\X2\04220438043F043E0432044B0435\X0\',
'\X2\04220438043F043E0432044B0435\X0\');
#235=PROPERTY_DEFINITION('material property','material name',#477);
#236=PROPERTY_DEFINITION('material property','density of part',#477);
#237=DATE_TIME_ROLE('creation_date');
#238=APPLIED_DATE_AND_TIME_ASSIGNMENT(#239,#237,(#477));
#239=DATE_AND_TIME(#240,#241);
#240=CALENDAR_DATE(2023,9,10);
#241=LOCAL_TIME(11,19,32.,#242);
#242=COORDINATED_UNIVERSAL_TIME_OFFSET(0,0,.BEHIND.);
#243=AXIS2_PLACEMENT_3D('',#345,#275,#276);
#244=AXIS2_PLACEMENT_3D('',#346,#277,#278);
#245=AXIS2_PLACEMENT_3D('',#348,#279,#280);
#246=AXIS2_PLACEMENT_3D('',#350,#281,#282);
#247=AXIS2_PLACEMENT_3D('',#351,#283,#284);
#248=AXIS2_PLACEMENT_3D('',#353,#285,#286);
#249=AXIS2_PLACEMENT_3D('',#354,#287,#288);
#250=AXIS2_PLACEMENT_3D('',#356,#289,#290);
#251=AXIS2_PLACEMENT_3D('',#358,#291,#292);
#252=AXIS2_PLACEMENT_3D('',#359,#293,#294);
#253=AXIS2_PLACEMENT_3D('',#360,#295,#296);
#254=AXIS2_PLACEMENT_3D('',#364,#298,#299);
#255=AXIS2_PLACEMENT_3D('',#365,#300,#301);
#256=AXIS2_PLACEMENT_3D('',#366,#302,#303);
#257=AXIS2_PLACEMENT_3D('',#379,#304,#305);
#258=AXIS2_PLACEMENT_3D('',#380,#306,#307);
#259=AXIS2_PLACEMENT_3D('',#393,#308,#309);
#260=AXIS2_PLACEMENT_3D('',#394,#310,#311);
#261=AXIS2_PLACEMENT_3D('',#408,#312,#313);
#262=AXIS2_PLACEMENT_3D('',#411,#315,#316);
#263=AXIS2_PLACEMENT_3D('',#412,#317,#318);
#264=AXIS2_PLACEMENT_3D('',#414,#319,#320);
#265=AXIS2_PLACEMENT_3D('',#415,#321,#322);
#266=AXIS2_PLACEMENT_3D('',#418,#323,#324);
#267=AXIS2_PLACEMENT_3D('',#420,#326,#327);
#268=AXIS2_PLACEMENT_3D('',#421,#328,#329);
#269=AXIS2_PLACEMENT_3D('',#424,#330,#331);
#270=AXIS2_PLACEMENT_3D('',#425,#332,#333);
#271=AXIS2_PLACEMENT_3D('',#427,#335,#336);
#272=AXIS2_PLACEMENT_3D('',#429,#338,#339);
#273=AXIS2_PLACEMENT_3D('',#432,#340,#341);
#274=AXIS2_PLACEMENT_3D('',#433,#342,#343);
#275=DIRECTION('axis',(0.,0.,1.));
#276=DIRECTION('refdir',(1.,0.,0.));
#277=DIRECTION('center_axis',(0.,1.,0.));
#278=DIRECTION('ref_axis',(0.,0.,1.));
#279=DIRECTION('center_axis',(0.,1.,0.));
#280=DIRECTION('ref_axis',(1.,0.,0.));
#281=DIRECTION('center_axis',(-6.91890515370799E-16,1.,0.));
#282=DIRECTION('ref_axis',(0.,0.,1.));
#283=DIRECTION('center_axis',(0.,1.,0.));
#284=DIRECTION('ref_axis',(0.,0.,1.));
#285=DIRECTION('center_axis',(0.,1.,0.));
#286=DIRECTION('ref_axis',(1.,0.,0.));
#287=DIRECTION('center_axis',(-1.3837810307416E-15,1.,0.));
#288=DIRECTION('ref_axis',(-8.78829173176966E-14,0.,1.));
#289=DIRECTION('center_axis',(-1.,-1.3837810307416E-15,-8.7732661570003E-14));
#290=DIRECTION('ref_axis',(8.7732661570003E-14,0.,-1.));
#291=DIRECTION('center_axis',(0.,1.,0.));
#292=DIRECTION('ref_axis',(-1.,0.,0.));
#293=DIRECTION('center_axis',(0.,1.,0.));
#294=DIRECTION('ref_axis',(-1.,0.,0.));
#295=DIRECTION('center_axis',(0.,1.,0.));
#296=DIRECTION('ref_axis',(-1.,0.,0.));
#297=DIRECTION('',(0.,-1.,0.));
#298=DIRECTION('center_axis',(0.,1.,0.));
#299=DIRECTION('ref_axis',(1.,0.,0.));
#300=DIRECTION('center_axis',(0.,1.,0.));
#301=DIRECTION('ref_axis',(1.,0.,0.));
#302=DIRECTION('center_axis',(1.,0.,0.));
#303=DIRECTION('ref_axis',(0.,0.,-1.));
#304=DIRECTION('center_axis',(1.,0.,0.));
#305=DIRECTION('ref_axis',(0.,1.,0.));
#306=DIRECTION('center_axis',(1.,0.,0.));
#307=DIRECTION('ref_axis',(0.,0.,-1.));
#308=DIRECTION('center_axis',(-1.,0.,0.));
#309=DIRECTION('ref_axis',(0.,1.,0.));
#310=DIRECTION('center_axis',(1.,0.,0.));
#311=DIRECTION('ref_axis',(0.,-1.,-1.22464679914735E-16));
#312=DIRECTION('center_axis',(0.,-1.,0.));
#313=DIRECTION('ref_axis',(1.,0.,0.));
#314=DIRECTION('',(-0.707106781186544,-0.707106781186551,-8.6595605623549E-17));
#315=DIRECTION('center_axis',(0.,-1.,0.));
#316=DIRECTION('ref_axis',(1.,0.,0.));
#317=DIRECTION('center_axis',(0.,-1.,0.));
#318=DIRECTION('ref_axis',(0.,0.,-1.));
#319=DIRECTION('center_axis',(0.,1.,0.));
#320=DIRECTION('ref_axis',(1.,0.,0.));
#321=DIRECTION('center_axis',(0.,1.,0.));
#322=DIRECTION('ref_axis',(1.,0.,0.));
#323=DIRECTION('center_axis',(0.,-1.,0.));
#324=DIRECTION('ref_axis',(1.,0.,0.));
#325=DIRECTION('',(0.707106781186548,-0.707106781186547,-8.65956056235494E-17));
#326=DIRECTION('center_axis',(0.,-1.,0.));
#327=DIRECTION('ref_axis',(1.,0.,0.));
#328=DIRECTION('center_axis',(0.,1.,0.));
#329=DIRECTION('ref_axis',(-1.,0.,0.));
#330=DIRECTION('center_axis',(0.,1.,0.));
#331=DIRECTION('ref_axis',(1.,0.,0.));
#332=DIRECTION('center_axis',(0.,1.,0.));
#333=DIRECTION('ref_axis',(1.,0.,0.));
#334=DIRECTION('',(0.,-1.,0.));
#335=DIRECTION('center_axis',(0.,-1.,0.));
#336=DIRECTION('ref_axis',(1.,0.,0.));
#337=DIRECTION('',(0.707106781186547,0.707106781186548,8.65956056235492E-17));
#338=DIRECTION('center_axis',(0.,1.,0.));
#339=DIRECTION('ref_axis',(-1.,0.,0.));
#340=DIRECTION('center_axis',(0.,1.,0.));
#341=DIRECTION('ref_axis',(1.,0.,0.));
#342=DIRECTION('center_axis',(0.,1.,0.));
#343=DIRECTION('ref_axis',(1.,0.,0.));
#344=DIRECTION('',(0.,-1.,0.));
#345=CARTESIAN_POINT('',(0.,0.,0.));
#346=CARTESIAN_POINT('Origin',(-3.89780381807382,-3.5417520601109,4.44089209850063E-15));
#347=CARTESIAN_POINT('',(3.10219618192618,-3.5417520601109,3.58363933909748E-15));
#348=CARTESIAN_POINT('Origin',(-3.89780381807382,-3.5417520601109,4.44089209850063E-15));
#349=CARTESIAN_POINT('',(-3.89780381807382,-3.5417520601109,-6.60710678118523));
#350=CARTESIAN_POINT('Origin',(-3.89780381807382,-3.5417520601109,4.44089209850063E-15));
#351=CARTESIAN_POINT('Origin',(-3.89780381807382,-8.2417520601109,4.44089209850063E-15));
#352=CARTESIAN_POINT('',(-8.14780381807382,-8.2417520601109,4.96136698813825E-15));
#353=CARTESIAN_POINT('Origin',(-3.89780381807382,-8.2417520601109,4.44089209850063E-15));
#354=CARTESIAN_POINT('Origin',(-3.89780381807382,-3.79175206011461,4.44089209850063E-15));
#355=CARTESIAN_POINT('',(-3.89780381807337,-3.79175206011461,-5.15));
#356=CARTESIAN_POINT('Origin',(-3.8978038180733,-3.79175206011461,-5.9));
#357=CARTESIAN_POINT('',(1.25219618192618,-3.79175206011461,3.81019899693974E-15));
#358=CARTESIAN_POINT('Origin',(-3.89780381807382,-3.79175206011461,4.44089209850063E-15));
#359=CARTESIAN_POINT('Origin',(-3.89780381807382,-3.79175206011461,4.44089209850063E-15));
#360=CARTESIAN_POINT('Origin',(-3.89780381807382,-3.8917520601109,4.44089209850063E-15));
#361=CARTESIAN_POINT('',(1.25219618192618,-4.7417520601109,3.81019899693974E-15));
#362=CARTESIAN_POINT('',(1.25219618192618,-3.8917520601109,3.81019899693974E-15));
#363=CARTESIAN_POINT('',(-9.04780381807382,-4.7417520601109,4.44089209850063E-15));
#364=CARTESIAN_POINT('Origin',(-3.89780381807382,-4.7417520601109,4.44089209850063E-15));
#365=CARTESIAN_POINT('Origin',(-3.89780381807382,-4.7417520601109,4.44089209850063E-15));
#366=CARTESIAN_POINT('Origin',(-3.14780381807382,42.4979709914301,4.44089209850063E-15));
#367=CARTESIAN_POINT('',(-3.14780381807382,-1.63866573793216,-5.97867432443254));
#368=CARTESIAN_POINT('',(-3.14780381807382,-1.63866573793216,5.97867432443254));
#369=CARTESIAN_POINT('Ctrl Pts',(-3.14780381807382,-1.63866573793436,-5.97867432443171));
#370=CARTESIAN_POINT('Ctrl Pts',(-3.14780381807382,-1.35300943579,-5.21657917842045));
#371=CARTESIAN_POINT('Ctrl Pts',(-3.14780381807382,-1.11231137411738,-4.40292261026641));
#372=CARTESIAN_POINT('Ctrl Pts',(-3.14780381807382,-0.676592129186375,-2.36949209935701));
#373=CARTESIAN_POINT('Ctrl Pts',(-3.14780381807717,-0.557515589917507,-1.13313073428623));
#374=CARTESIAN_POINT('Ctrl Pts',(-3.14780381807717,-0.557515592207386,1.13313076873559));
#375=CARTESIAN_POINT('Ctrl Pts',(-3.14780381807382,-0.676592133974746,2.36949213356574));
#376=CARTESIAN_POINT('Ctrl Pts',(-3.14780381807382,-1.11231138051463,4.40292263192583));
#377=CARTESIAN_POINT('Ctrl Pts',(-3.14780381807382,-1.35300943949352,5.21657918831459));
#378=CARTESIAN_POINT('Ctrl Pts',(-3.14780381807382,-1.63866573792404,5.97867432443557));
#379=CARTESIAN_POINT('Origin',(-3.14780381807382,42.4979709914301,4.44089209850063E-15));
#380=CARTESIAN_POINT('Origin',(-4.64780381807382,42.4979709914301,4.44089209850063E-15));
#381=CARTESIAN_POINT('',(-4.64780381807382,-1.63866573793216,5.97867432443254));
#382=CARTESIAN_POINT('',(-4.64780381807382,-1.63866573793216,-5.97867432443254));
#383=CARTESIAN_POINT('Ctrl Pts',(-4.64780381807382,-1.63866573792358,5.97867432443575));
#384=CARTESIAN_POINT('Ctrl Pts',(-4.64780381807382,-1.35300943916686,5.21657918744416));
#385=CARTESIAN_POINT('Ctrl Pts',(-4.64780381807382,-1.112311379929,4.40292262994924));
#386=CARTESIAN_POINT('Ctrl Pts',(-4.64780381807382,-0.676592133763985,2.36949213147687));
#387=CARTESIAN_POINT('Ctrl Pts',(-4.64780381807717,-0.557515592369595,1.13313076771167));
#388=CARTESIAN_POINT('Ctrl Pts',(-4.64780381807717,-0.557515590079716,-1.13313073326231));
#389=CARTESIAN_POINT('Ctrl Pts',(-4.64780381807382,-0.676592128975612,-2.36949209726814));
#390=CARTESIAN_POINT('Ctrl Pts',(-4.64780381807382,-1.11231137353174,-4.40292260828982));
#391=CARTESIAN_POINT('Ctrl Pts',(-4.64780381807382,-1.35300943546335,-5.21657917755001));
#392=CARTESIAN_POINT('Ctrl Pts',(-4.64780381807382,-1.6386657379339,-5.9786743244319));
#393=CARTESIAN_POINT('Origin',(-4.64780381807382,42.4979709914301,4.44089209850063E-15));
#394=CARTESIAN_POINT('Origin',(-3.89780381807382,42.4979709914301,4.44089209850063E-15));
#395=CARTESIAN_POINT('',(-3.89780382147202,-1.63398502846772,-6.01312783126386));
#396=CARTESIAN_POINT('Ctrl Pts',(-4.64780381808257,-1.63866573793277,-5.9786743244278));
#397=CARTESIAN_POINT('Ctrl Pts',(-4.39854937135472,-1.63555456798102,-6.00164205448174));
#398=CARTESIAN_POINT('Ctrl Pts',(-4.14818771444699,-1.63398502848186,-6.01312783116011));
#399=CARTESIAN_POINT('Ctrl Pts',(-3.89780382147202,-1.63398502846773,-6.01312783126387));
#400=CARTESIAN_POINT('Ctrl Pts',(-3.14780381807214,-1.6386657379297,5.97867432445046));
#401=CARTESIAN_POINT('Ctrl Pts',(-3.64643472594537,-1.63244187505398,6.02462102766455));
#402=CARTESIAN_POINT('Ctrl Pts',(-4.14932960803872,-1.63244383094121,6.02460658863018));
#403=CARTESIAN_POINT('Ctrl Pts',(-4.6478038180756,-1.63866573792956,5.97867432445149));
#404=CARTESIAN_POINT('Ctrl Pts',(-3.89780382147202,-1.63398502846773,-6.01312783126387));
#405=CARTESIAN_POINT('Ctrl Pts',(-3.64746458449356,-1.63398502845359,-6.0131278313676));
#406=CARTESIAN_POINT('Ctrl Pts',(-3.39710311699833,-1.63555400814025,-6.00164618741946));
#407=CARTESIAN_POINT('Ctrl Pts',(-3.14780381807428,-1.6386657379328,-5.97867432442761));
#408=CARTESIAN_POINT('Origin',(-3.89780381807382,-8.3917520601109,4.44089209850063E-15));
#409=CARTESIAN_POINT('',(-8.44780381807382,-8.5417520601109,3.88367780488858E-15));
#410=CARTESIAN_POINT('',(-8.29780381807382,-8.3917520601109,3.90204750687579E-15));
#411=CARTESIAN_POINT('Origin',(-3.89780381807382,-8.5417520601109,4.44089209850063E-15));
#412=CARTESIAN_POINT('Origin',(-9.89780381807382,-8.5417520601109,4.44089209850063E-15));
#413=CARTESIAN_POINT('',(-9.04780381807382,-8.5417520601109,5.07158520006151E-15));
#414=CARTESIAN_POINT('Origin',(-3.89780381807382,-8.5417520601109,4.44089209850063E-15));
#415=CARTESIAN_POINT('Origin',(-3.89780381807382,-8.1167520601109,4.44089209850063E-15));
#416=CARTESIAN_POINT('',(2.10219618192618,-7.6917520601109,3.70610401901221E-15));
#417=CARTESIAN_POINT('',(-9.89780381807382,-7.6917520601109,5.17568017798904E-15));
#418=CARTESIAN_POINT('Origin',(-3.89780381807382,-7.6917520601109,4.44089209850063E-15));
#419=CARTESIAN_POINT('',(-9.47280381807382,-8.1167520601109,5.12363268902528E-15));
#420=CARTESIAN_POINT('Origin',(-3.89780381807382,-7.6917520601109,4.44089209850063E-15));
#421=CARTESIAN_POINT('Origin',(-3.89780381807382,-6.6417520601109,4.44089209850063E-15));
#422=CARTESIAN_POINT('',(-9.89780381807382,-5.5917520601109,5.17568017798904E-15));
#423=CARTESIAN_POINT('',(2.10219618192618,-5.5917520601109,3.70610401901222E-15));
#424=CARTESIAN_POINT('Origin',(-3.89780381807382,-5.5917520601109,4.44089209850063E-15));
#425=CARTESIAN_POINT('Origin',(-3.89780381807382,-5.5917520601109,4.44089209850063E-15));
#426=CARTESIAN_POINT('',(2.10219618192618,-6.6417520601109,3.70610401901222E-15));
#427=CARTESIAN_POINT('Origin',(-3.89780381807382,-5.1667520601109,4.44089209850063E-15));
#428=CARTESIAN_POINT('',(-9.47280381807382,-5.1667520601109,3.75815150797598E-15));
#429=CARTESIAN_POINT('Origin',(-3.89780381807382,-2.7917520601109,4.44089209850063E-15));
#430=CARTESIAN_POINT('',(-3.89780381807382,-2.0417520601109,-6.99999999999999));
#431=CARTESIAN_POINT('',(3.10219618192618,-2.0417520601109,3.58363933909748E-15));
#432=CARTESIAN_POINT('Origin',(-3.89780381807382,-2.0417520601109,4.44089209850063E-15));
#433=CARTESIAN_POINT('Origin',(-3.89780381807382,-2.0417520601109,4.44089209850063E-15));
#434=CARTESIAN_POINT('',(3.10219618192618,-2.7917520601109,3.58363933909748E-15));
#435=CARTESIAN_POINT('Ctrl Pts',(-3.89780382138532,-2.04175206031999,-7.00000000045589));
#436=CARTESIAN_POINT('Ctrl Pts',(-10.8978038375662,-2.04175206180842,-7.00000000045589));
#437=CARTESIAN_POINT('Ctrl Pts',(-10.8978038375662,-2.04175206888137,1.57249767286779E-8));
#438=CARTESIAN_POINT('Ctrl Pts',(-10.8978038375662,-2.04175207595432,7.00000003190584));
#439=CARTESIAN_POINT('Ctrl Pts',(-3.89780382138532,-2.04175207446588,7.00000003190584));
#440=CARTESIAN_POINT('Ctrl Pts',(3.10219619479554,-2.04175207297745,7.00000003190584));
#441=CARTESIAN_POINT('Ctrl Pts',(3.10219619479554,-2.0417520659045,1.57249767316858E-8));
#442=CARTESIAN_POINT('Ctrl Pts',(3.10219619479554,-2.04175205883155,-7.00000000045589));
#443=CARTESIAN_POINT('Ctrl Pts',(-3.89780382138532,-2.04175206031999,-7.00000000045589));
#444=CARTESIAN_POINT('Ctrl Pts',(-3.89780382167097,-0.698380308610556,-4.01778437286777));
#445=CARTESIAN_POINT('Ctrl Pts',(-7.91558821162108,-0.698380309464873,-4.01778437286777));
#446=CARTESIAN_POINT('Ctrl Pts',(-7.91558821162108,-0.698380313524528,1.70823481246391E-8));
#447=CARTESIAN_POINT('Ctrl Pts',(-7.91558821162108,-0.698380317584183,4.01778440703247));
#448=CARTESIAN_POINT('Ctrl Pts',(-3.89780382167097,-0.698380316729865,4.01778440703247));
#449=CARTESIAN_POINT('Ctrl Pts',(0.11998056827915,-0.698380315875548,4.01778440703247));
#450=CARTESIAN_POINT('Ctrl Pts',(0.119980568279151,-0.698380311815893,1.70823481263655E-8));
#451=CARTESIAN_POINT('Ctrl Pts',(0.11998056827915,-0.698380307756238,-4.01778437286777));
#452=CARTESIAN_POINT('Ctrl Pts',(-3.89780382167097,-0.698380308610556,-4.01778437286777));
#453=CARTESIAN_POINT('Ctrl Pts',(-3.89780382170092,-0.557515590229383,-0.749999979148221));
#454=CARTESIAN_POINT('Ctrl Pts',(-4.64780381807382,-0.557515590388858,-0.749999979148221));
#455=CARTESIAN_POINT('Ctrl Pts',(-4.64780381807382,-0.557515591146674,1.72246808364095E-8));
#456=CARTESIAN_POINT('Ctrl Pts',(-4.64780381807382,-0.55751559190449,0.750000013597583));
#457=CARTESIAN_POINT('Ctrl Pts',(-3.89780382170092,-0.557515591745015,0.750000013597583));
#458=CARTESIAN_POINT('Ctrl Pts',(-3.14780382532802,-0.557515591585539,0.750000013597583));
#459=CARTESIAN_POINT('Ctrl Pts',(-3.14780382532802,-0.557515590827723,1.72246808367317E-8));
#460=CARTESIAN_POINT('Ctrl Pts',(-3.14780382532802,-0.557515590069907,-0.749999979148221));
#461=CARTESIAN_POINT('Ctrl Pts',(-3.89780382170092,-0.557515590229383,-0.749999979148221));
#462=CARTESIAN_POINT('Ctrl Pts',(-3.89780382138532,-2.04175206031999,-7.00000000045589));
#463=CARTESIAN_POINT('Ctrl Pts',(-3.89780382143197,-1.82236414290107,-6.51297020025488));
#464=CARTESIAN_POINT('Ctrl Pts',(-3.89780382147203,-1.63398502846773,-6.01312783126386));
#465=UNCERTAINTY_MEASURE_WITH_UNIT(LENGTH_MEASURE(0.01),#469,
'DISTANCE_ACCURACY_VALUE',
'Maximum model space distance between geometric entities at asserted c
onnectivities');
#466=UNCERTAINTY_MEASURE_WITH_UNIT(LENGTH_MEASURE(0.01),#469,
'DISTANCE_ACCURACY_VALUE',
'Maximum model space distance between geometric entities at asserted c
onnectivities');
#467=(
GEOMETRIC_REPRESENTATION_CONTEXT(3)
GLOBAL_UNCERTAINTY_ASSIGNED_CONTEXT((#465))
GLOBAL_UNIT_ASSIGNED_CONTEXT((#469,#471,#472))
REPRESENTATION_CONTEXT('','3D')
);
#468=(
GEOMETRIC_REPRESENTATION_CONTEXT(3)
GLOBAL_UNCERTAINTY_ASSIGNED_CONTEXT((#466))
GLOBAL_UNIT_ASSIGNED_CONTEXT((#469,#471,#472))
REPRESENTATION_CONTEXT('','3D')
);
#469=(
LENGTH_UNIT()
NAMED_UNIT(*)
SI_UNIT(.MILLI.,.METRE.)
);
#470=(
LENGTH_UNIT()
NAMED_UNIT(*)
SI_UNIT(.CENTI.,.METRE.)
);
#471=(
NAMED_UNIT(*)
PLANE_ANGLE_UNIT()
SI_UNIT($,.RADIAN.)
);
#472=(
NAMED_UNIT(*)
SI_UNIT($,.STERADIAN.)
SOLID_ANGLE_UNIT()
);
#473=SHAPE_DEFINITION_REPRESENTATION(#474,#475);
#474=PRODUCT_DEFINITION_SHAPE('',$,#477);
#475=SHAPE_REPRESENTATION('',(#243),#467);
#476=PRODUCT_DEFINITION_CONTEXT('part definition',#481,'design');
#477=PRODUCT_DEFINITION('\X2\0414043504420430043B044C\X0\3',
'\X2\0413041E04240420041E041C041004220418041A\X0\ \X2\04170420\X0\1-\X2\041B0420\X0\-
M',#478,#476);
#478=PRODUCT_DEFINITION_FORMATION('',$,#483);
#479=PRODUCT_RELATED_PRODUCT_CATEGORY(
'\X2\0413041E04240420041E041C041004220418041A\X0\ \X2\04170420\X0\1-\X2\041B0420\X0\-
M','\X2\0413041E04240420041E041C041004220418041A\X0\ \X2\04170420\X0\1
-\X2\041B0420\X0\-M',(#483));
#480=APPLICATION_PROTOCOL_DEFINITION('international standard',
'automotive_design',2009,#481);
#481=APPLICATION_CONTEXT(
'Core Data for Automotive Mechanical Design Process');
#482=PRODUCT_CONTEXT('part definition',#481,'mechanical');
#483=PRODUCT('\X2\0414043504420430043B044C\X0\3',
'\X2\0413041E04240420041E041C041004220418041A\X0\ \X2\04170420\X0\1-\X2\041B0420\X0\-
M',$,(#482));
#484=PRESENTATION_STYLE_ASSIGNMENT((#485));
#485=SURFACE_STYLE_USAGE(.BOTH.,#488);
#486=SURFACE_STYLE_RENDERING_WITH_PROPERTIES($,#492,(#487));
#487=SURFACE_STYLE_TRANSPARENT(0.);
#488=SURFACE_SIDE_STYLE('',(#489,#486));
#489=SURFACE_STYLE_FILL_AREA(#490);
#490=FILL_AREA_STYLE('',(#491));
#491=FILL_AREA_STYLE_COLOUR('',#492);
#492=COLOUR_RGB('',0.749019607843137,0.749019607843137,0.749019607843137);
ENDSEC;
END-ISO-10303-21;
